Wednesday, May 23, 2012

Star Of Munster - Traditional Irish Reel



This traditional Irish reel is played on acoustic guitar at speed and then each part is played slowly. Here is the TAB for the tune:

Part A

|-----------------|-----------------|
|-1-----1-0-----0-|-----------------|
|-----2-----2-0---|-2-0-----0-----0-|
|-----------------|-----2-4---2-0---|
|-----------------|-----------------|
|-----------------|-----------------|


|-----------------|-0-5-5-2-3-0-----|
|-----------0-1-3-|-------------3-0-|
|---2-2-0-2-------|-----------------|
|-2---------------|-----------------|
|-----------------|-----------------|
|-----------------|-----------------|


|-----------------|-----------------|
|-1-----1-0-----0-|-----------------|
|-----2-----2-0---|-2-0-----0-----0-|
|-----------------|-----2-4---2-0---|
|-----------------|-----------------|
|-----------------|-----------------|


|-----------------|-0---------------|
|-----------0-1-3-|---1-3-0---------|
|---2-2-0-2-------|---------2-------|
|-2---------------|-----------------|
|-----------------|-----------------|
|-----------------|-----------------|



Part B

|-0-5-5-7-5-3-0-3-|-5-3-7-3-5-3-0-2-|
|-----------------|-----------------|
|-----------------|-----------------|
|-----------------|-----------------|
|-----------------|-----------------|
|-----------------|-----------------|


|-3---3-5-3-2-0-2-|-320-5-2-3-2-0---|
|-----------------|---------------3-|
|-----------------|-----------------|
|-----------------|-----------------|
|-----------------|-----------------|
|-----------------|-----------------|


|-0-5-5-7-5-3-0-3-|-5-3-7-3-5-3-0-2-|
|-----------------|-----------------|
|-----------------|-----------------|
|-----------------|-----------------|
|-----------------|-----------------|
|-----------------|-----------------|


|-3---3-0-5---5-3-|-7---7-5-3-2-0---|
|-----------------|---------------3-|
|-----------------|-----------------|
|-----------------|-----------------|
|-----------------|-----------------|
|-----------------|-----------------|

1 comment:

Anonymous said...

Thanks Bucky. This got me into playing irish reels, and I love your other trad stuff.Awesome playing.