Wednesday, December 12, 2012

Banish Misfortune - Traditional Irish Jig



This is a traditional Irish jig called Banish Misfortune played on the guitar. Here is the TAB for the tune:

Banish Misfortune

Part A

|-2-0---------|-------------|
|-----3-1-----|---3-3-1-----|
|---------2-0-|-2-------2-0-|
|-------------|-------------|
|-------------|-------------|
|-------------|-------------|

|-------------|-------------|
|-------------|-------------|
|-------------|-------0---0-|
|-4---4-0-2-0-|-4-0-4---4---|
|-------------|-------------|
|-------------|-------------|

|-------------|-----------0-|
|-------1-----|-------1-3---|
|-2---2---2-0-|---0-2-------|
|-------------|-4-----------|
|-------------|-------------|
|-------------|-------------|

|-2-0---------|-----------0-|
|-----3-1-----|---3-2-3-----|
|---------2-0-|-2-----------|
|-------------|-------------|
|-------------|-------------|
|-------------|-------------|

Part B

|-2---2-2---2-|-2---3-5-3-2-|
|---------3---|-------------|
|-------------|-------------|
|-------------|-------------|
|-------------|-------------|
|-------------|-------------|

|-0-----------|-0---2-3-2-0-|
|-----1-1-0-1-|-------------|
|-------------|-------------|
|-------------|-------------|
|-------------|-------------|
|-------------|-------------|

|-2---3-5-3-2-|-0---2-3-2-0-|
|-------------|-------------|
|-------------|-------------|
|-------------|-------------|
|-------------|-------------|
|-------------|-------------|

|-2-0---------|-----------0-|
|-----3-1-----|---3-2-3-----|
|---------2-0-|-2-----------|
|-------------|-------------|
|-------------|-------------|
|-------------|-------------|

Part C

|-2---3-0---2-|-----0-------|
|-------------|-3-----1-----|
|-------------|-------------|
|-------------|-------------|
|-------------|-------------|
|-------------|-------------|

|-------------|-------------|
|-------------|-------------|
|-2---2-0-2-0-|-------------|
|-------------|-4---4-4-2-0-|
|-------------|-------------|
|-------------|-------------|

|-------------|-----------0-|
|-1---1-1-----|-------1-3---|
|---------2-0-|---0-2-------|
|-------------|-4-----------|
|-------------|-------------|
|-------------|-------------|

|-2-0---------|-----------0-|
|-----3-1-----|---3-2-3-----|
|---------2-0-|-2-----------|
|-------------|-------------|
|-------------|-------------|
|-------------|-------------|




No comments: