Wednesday, June 13, 2012

A Fig For A Kiss - Traditional Irish Slip Jig



This traditional Irish slip jig is played first at speed then each part is played slowly. Here is the TAB for the tune:

Part A

|-------------------|-------------------|
|-----0-----0-0-----|-------------------|
|-0-------------2-0-|-----2-------2-----|
|-------2-----------|-4-----0---4---4-0-|
|-------------------|-------------------|
|-------------------|-------------------|


|-------------------|-------------------|
|-----0-----0-0-----|-3---0-------------|
|-0-------------2-0-|-------2-----------|
|-------2-----------|---------4-0-2-----|
|-------------------|-------------------|
|-------------------|-------------------|


Part B

|-----0-0---2-3-2-0-|-2---------2-5-2---|
|-0-----------------|-----3-3---------3-|
|-------------------|-------------------|
|-------------------|-------------------|
|-------------------|-------------------|
|-------------------|-------------------|


|-----0-0---2-3-2-0-|-------------------|
|-0-----------------|-3---0-------------|
|-------------------|-------2-----------|
|-------------------|---------4-0-2-----|
|-------------------|-------------------|
|-------------------|-------------------|

1 comment:

kensomniac said...

I love this song, thanks for the tab.. I don't know why it soothes me so much to play.

And perfect upload time. ;)