Wednesday, May 09, 2012

Mabel's Fancy - Old Time Fiddle Tune



This old time fiddle tune is really fun to play on the guitar. I find it helps to barre the G and B strings on the second fret during the A arpeggio. This tune is in the key of A and is in 2/4 time.

Here is the TAB:

Part A

|-0-2-|-5---5-2-0-------|---0-2---0-------|
|-----|-----------2---2-|-3-----3---2---2-|
|-----|-------------2---|-------------2---|
|-----|-----------------|-----------------|
|-----|-----------------|-----------------|
|-----|-----------------|-----------------|


|-------2-0-------|-----------0-2-4-|
|-3-2-3-----2---2-|-----0-2-3-------|
|-------------2---|-1-2-------------|
|-----------------|-----------------|
|-----------------|-----------------|
|-----------------|-----------------|


|-5---5-2-0-------|---0-2---0-------|
|-----------2---2-|-3-----3---2---2-|
|-------------2---|-------------2---|
|-----------------|-----------------|
|-----------------|-----------------|
|-----------------|-----------------|


|-------2-0-------|-------------0-4-|
|-3-2-3-----2---2-|-0-----0---------|
|-------------2---|---2-1---2-------|
|-----------------|-----------------|
|-----------------|-----------------|
|-----------------|-----------------|



Part B

|-5---5-0-4-5-7-4-|-2-4-5-2-0-------|
|-----------------|-----------2-0---|
|-----------------|---------------2-|
|-----------------|-----------------|
|-----------------|-----------------|
|-----------------|-----------------|


|-5-0-5-7-9-7-5-9-|-7-5-7-9-7-10-9-7-|
|-----------------|------------------|
|-----------------|------------------|
|-----------------|------------------|
|-----------------|------------------|
|-----------------|------------------|


|-5-7-9-5-4-5-7-4-|-2-4-5-2-0-------|
|-----------------|-----------2---2-|
|-----------------|-------------2---|
|-----------------|-----------------|
|-----------------|-----------------|
|-----------------|-----------------|


|-------2-0-------|-------------0-4-|
|-3-2-3-----2---2-|-0-----0---------|
|-------------2---|---2-1---2-------|
|-----------------|-----------------|
|-----------------|-----------------|
|-----------------|-----------------|

No comments: