Thursday, May 17, 2012

Lad O'Beirne's - Traditional Irish Reel



This traditional Irish reel is easy to play fast on guitar because of all the notes on open strings. In some places where two eighth notes repeat it sounds good to substitute four sixteenth notes. Here is the guitar TAB for the song:

Part A

|-----------------|-----------------|
|-------------0---|--01-0-----------|
|---0-0-0---0---0-|-2-----0-2-0---0-|
|-0-------0-------|-------------2---|
|-----------------|-----------------|
|-----------------|-----------------|


|-----------------|-0-3-0---3-0-----|
|-------------0-3-|-------3-----3-0-|
|---0-0---0-2-----|-----------------|
|-0-----4---------|-----------------|
|-----------------|-----------------|
|-----------------|-----------------|


|-----------------|-----------------|
|-0-0-3-0---0-1---|-----------------|
|---------0-------|-----0-----------|
|---------------2-|-2-2---2-0-------|
|-----------------|-----------------|
|-----------------|-----------------|


|-----------------|-----------------|
|---------0---0-1-|-3-0---1-0-------|
|-----0-2---------|-----2-----0-0---|
|-0-2-------------|-----------------|
|-----------------|-----------------|
|-----------------|-----------------|


Part B

|-------0---------|-0-3---3-0---3-0-|
|-3-3-0---3-3-0-3-|-----3-----3-----|
|-----------------|-----------------|
|-----------------|-----------------|
|-----------------|-----------------|
|-----------------|-----------------|


|-----------------|-----------------|
|-3-0-0-0-3-0---0-|-1---------------|
|-------------0---|---------0-------|
|-----------------|---2-2-2---2-0---|
|-----------------|-----------------|
|-----------------|-----------------|


|-------------0-2-|-3---5-2-3-0-----|
|-0-3-3-2-3-------|-------------3-0-|
|-----------------|-----------------|
|-----------------|-----------------|
|-----------------|-----------------|
|-----------------|-----------------|


|-----------------|-----------------|
|---------0---0-1-|-3-0---1-0-------|
|-----0-2---------|-----2-----0-0---|
|-0-2-------------|-----------------|
|-----------------|-----------------|
|-----------------|-----------------|

No comments: