Friday, March 23, 2012

O'Keefe's - Traditional Irish Slide



This traditional Irish slide is played on the acoustic guitar in the standard tuning. Here is the TAB for the tune:

O'Keefe's Slide

Part A

|-----0-0-----------------|
|-----------3-0---0-3---0-|
|-2-------------2---------|
|-------------------------|
|-------------------------|
|-------------------------|

|-----0-0-----------------|
|-----------3-0---------3-|
|-2---------------0-0-----|
|-------------------------|
|-------------------------|
|-------------------------|

|-----0-0-----------------|
|-----------3-0---0-3-----|
|-2-------------2-------2-|
|-------------------------|
|-------------------------|
|-------------------------|

|-----------0-------------|
|-0---0-3-----0-----------|
|---2-------------2-2-----|
|-------------------------|
|-------------------------|
|-------------------------|

Part B

|-0---5-5---7-5---3-0-----|
|-----------------------3-|
|-------------------------|
|-------------------------|
|-------------------------|
|-------------------------|

|-0---5-5---7-5---3-0---2-|
|-------------------------|
|-------------------------|
|-------------------------|
|-------------------------|
|-------------------------|

|-3---2-3---0-------------|
|-------------3-0---------|
|-----------------2-0---2-|
|-------------------------|
|-------------------------|
|-------------------------|

|-----------0-------------|
|-0---0-3-----0-----------|
|---2-------------2-2-----|
|-------------------------|
|-------------------------|
|-------------------------|

No comments: