Thursday, March 15, 2012

Let's Be Drinking And Kissing Women



This traditional Irish jig is played on the acoustic guitar in the standard tuning. Here is the TAB for the tune:


Let's Be Drinking And Kissing Women

Part A

-------------------0---0-|-----------0-------------
-----0-1-0-1-3-1-3-------|-----0-1-----3-1---------
---2---------------------|---2-------------2-0-----
-2-----------------------|-2-------------------2-0-
-------------------------|-------------------------
-------------------------|-------------------------


-------------------0---0-|-5-7-5-3-0---------------
-----0-1-0-1-3-1-3-------|-----------3-1-----------
---2---------------------|---------------2-0-2-----
-2-----------------------|-------------------------
-------------------------|-------------------------
-------------------------|-------------------------


Part B

-5---5-5-7-5-3-0-2-3-0---|-0-5-5-5-7-5-3-0---------
-----------------------3-|-----------------3-1-----
-------------------------|---------------------2-0-
-------------------------|-------------------------
-------------------------|-------------------------
-------------------------|-------------------------


-5---5-5-7-5-3-0-2-3---0-|-5-7-5-3-0---------------
-------------------------|-----------3-1-----------
-------------------------|---------------2-0-2-----
-------------------------|-------------------------
-------------------------|-------------------------
-------------------------|-------------------------

No comments: