Monday, November 26, 2012

The Kesh - Traditional Irish Jig



Here is another fun traditional Irish jig played on the guitar. The only tricky part with this tune is how to hit the high 'B' note at the end of the second part. I usually slide up to get it or play the 'B' and then slide back down to the 'G'. Here is the TAB for the tune:

The Kesh Jig

Part A

|-------------|-------------|
|-----------0-|---0-----0-3-|
|-0---0-0-2---|-2---2-2-----|
|-------------|-------------|
|-------------|-------------|
|-------------|-------------|

|-0-----3-----|-0-----------|
|---3-3---3-3-|---3-0-3-0---|
|-------------|-----------2-|
|-------------|-------------|
|-------------|-------------|
|-------------|-------------|

|-------------|-------------|
|-----------0-|---0-----0-3-|
|-0---0-0-2---|-2---2-2-----|
|-------------|-------------|
|-------------|-------------|
|-------------|-------------|

|-0-----3-----|-------------|
|---3-3---3-0-|-------------|
|-------------|-2-0---0-----|
|-------------|-----4-------|
|-------------|-------------|
|-------------|-------------|

Part B

|-------------|-0-3-0-------|
|-0---0-3-0-3-|-------3-0---|
|---2---------|-----------0-|
|-------------|-------------|
|-------------|-------------|
|-------------|-------------|

|-------------|-------------|
|-0---0-3-0---|---0---------|
|---2-------0-|-2---2-2-0-2-|
|-------------|-------------|
|-------------|-------------|
|-------------|-------------|

|-------------|-0-3-0-------|
|-0---0-3-0-3-|-------3-0-3-|
|---2---------|-------------|
|-------------|-------------|
|-------------|-------------|
|-------------|-------------|

|-3-2-3-5-3-5-|-7-3-2-3-----|
|-------------|-------------|
|-------------|-------------|
|-------------|-------------|
|-------------|-------------|
|-------------|-------------|

2 comments:

Nuñez Presedo said...

your blog is great!!!

Alvaro said...

Great stuff, thanks for sharing!