Thursday, October 18, 2012

Cooley's - Traditional Irish Reel



This traditional Irish reel is played on acoustic guitar at speed and then each part is played slowly. Here is the TAB for the tune:

Part A

|-----------------|-----------------|
|---0-0---0-----0-|-0-----0-3-0-----|
|-------2---------|-----2-------2-0-|
|-2-----------2---|-----------------|
|-----------------|-----------------|
|-----------------|-----------------|


|-----------------|-----------------|
|-----------------|---------3-------|
|-----2---4---2---|-------2---2-----|
|-420---0---0---0-|-4-0-4-------4-0-|
|-----------------|-----------------|
|-----------------|-----------------|


|-----------------|-----------0-2-3-|
|---0-0---0-----0-|-0-----0-3-------|
|-------2---------|-----2-----------|
|-2-----------2---|-----------------|
|-----------------|-----------------|
|-----------------|-----------------|


|-5-2-3-0---------|-----------------|
|---------3-0-----|-----------------|
|-------------2---|-----------------|
|---------------4-|-0-2-4-0-2-----0-|
|-----------------|-----------------|
|-----------------|-----------------|


Part B

|-0-------0---3---|-0-------3-0-----|
|---0-0-0---0---0-|---0-0-0-----3-0-|
|-----------------|-----------------|
|-----------------|-----------------|
|-----------------|-----------------|
|-----------------|-----------------|


|-----------------|-----------0-2---|
|-----------------|---------3-----3-|
|-2-----2---2---2-|-2-----2---------|
|-----4---0---4---|-----4-----------|
|-----------------|-----------------|
|-----------------|-----------------|


|-0-------0---3---|-0---------0-2-3-|
|---0-0-0---0---0-|---0-0-0-3-------|
|-----------------|-----------------|
|-----------------|-----------------|
|-----------------|-----------------|
|-----------------|-----------------|


|-5-2-3-0---------|-----------3-2-3-|
|---------3-0-----|-----------------|
|-------------2---|-----------------|
|---------------4-|-0-2-4-0-2-------|
|-----------------|-----------------|
|-----------------|-----------------|

4 comments:

cowerding noob said...

Oooh, this is right in line with the sort of music I like. And I'm trying to learn to play guitar. Looking forward to future posts!

Anonymous said...

Hello
THanks for your tab
I like irish music and your blog is fantastic for learn it.
Greetings from switzerland

Wayne Walker said...

I thankyou for tab and video of some great songs I am inspired, cound you bring back your rendition of paddy whack

Anonymous said...

1 year after i retry
thank