Wednesday, April 11, 2012

Comb Your Hair And Curl It - A Traditional Irish Slip Jig



This traditional Irish slip jig is played on the acoustic guitar in the standard tuning.

Comb Your Hair And Curl It

Part A

|-------------------|-----0-0-----------|
|-0-----------------|-0---------2-3-----|
|-------------0---2-|-----------------2-|
|-----2-2---4-------|-------------------|
|-------------------|-------------------|
|-------------------|-------------------|

|-------------------|-------------------|
|-0-----------------|-0-----------------|
|-------------0---2-|-----0-0-2-0-------|
|-----2-2---4-------|-------------4-2-0-|
|-------------------|-------------------|
|-------------------|-------------------|

|-------------------|-----0-0-----------|
|-0-----------------|-0---------2-3-----|
|-------------0---2-|-----------------2-|
|-----2-2---4-------|-------------------|
|-------------------|-------------------|
|-------------------|-------------------|

|-------------------|-------------------|
|-0-----------------|-0-----------------|
|---2---------0---2-|-----0-0-2-0-------|
|-----2-2---4-------|-------------4-2-0-|
|-------------------|-------------------|
|-------------------|-------------------|


Part B

|-3---0-0---0-0---2-|-0---0-0-2-3-5-2---|
|---------0---------|---0-------------3-|
|-------------------|-------------------|
|-------------------|-------------------|
|-------------------|-------------------|
|-------------------|-------------------|

|-3---0-0---0-0---0-|-------------------|
|---------0---------|-3---0---0---------|
|-------------------|-------2---0-------|
|-------------------|-------------4-2-0-|
|-------------------|-------------------|
|-------------------|-------------------|

|-3---0-0---0-0---2-|-3-0-0-0-2-3-5-2---|
|---------0---------|-----------------3-|
|-------------------|-------------------|
|-------------------|-------------------|
|-------------------|-------------------|
|-------------------|-------------------|

|-3---3-5-3-2-3---0-|-------------------|
|-------------------|-3---0---0---------|
|-------------------|-------2---0-------|
|-------------------|-------------4-2-0-|
|-------------------|-------------------|
|-------------------|-------------------|

1 comment:

Soyungato said...

What a lovely blog!!!