Saturday, December 10, 2011

Stairway to Ukulele Heaven



I figured out my version of Stairway on the ukulele this morning. I only ran through it a few times before recording the video so please forgive the mistakes and awkward rhythm. I'm playing a KoAloha soprano ukulele with Worth strings. If it sounds a little tinny it's because I'm in the bathroom recording on a cheap Sony point-n-shoot.

Here is the TAB:



-|-5-----5-7-----7-|-8-----8-2-----2-|-
-|-----5-----5-----|---5-------3-----|-
-|---5---------5---|-----5-------2---|-
-|-7-------6-------|-5-------0-------|-



-|-0---------0-----|-0-0-0-----------|-
-|---1---1-----1---|-1-1-1------~6-5-|-
-|-2---2---------2-|-0-2-2-----2-----|-
-|-----------------|-0-2-2-----------|-



-|-5-----5-7-----7-|-8-----8-2-----2-|-
-|-----5-----5-----|---5-------3-----|-
-|---5---------5---|-----5-------2---|-
-|-7-------6-------|-5-------0-------|-



-|-0---------0-----|-3-5-5-----------|-
-|---1---1-----1---|-3-5-5-----------|-
-|-2---2---------2-|-0-2-2-------2-4-|-
-|-----------------|-0-2-2-----------|-



-|-----3-------5---|-----0---5-0-----|-
-|---5---5---7---7-|---1---1---------|-
-|-5-------7-------|-2-----------2-4-|-
-|-----------------|-----------------|-



-|-----3-------3---|-0-0-0-----------|-
-|---5---5---3---3-|-1-1-1-----------|-
-|-5-------4-------|-0-2-2-------2-4-|-
-|-----------------|-0-2-2-----------|-



-|-----3-------5---|-----0---5-0-----|-
-|---5---5---7---7-|---1---1---------|-
-|-5-------7-------|-2-----------2-4-|-
-|-----------------|-----------------|-



-|-----3-------3---|-3-5-5-----------|-
-|---5---5---3---3-|-3-5-5-----------|-
-|-5-------4-------|-0-2-2-----------|-
-|-----------------|-0-0-0-----------|-


No comments: