Wednesday, March 07, 2012

Rakish Paddy - Traditional Irish Reel



This traditional Irish reel is played on the acoustic guitar in the standard tuning. Here is the TAB for the tune:

Part A

-----|-----------------|-----------------|
---0-|-1-----0-1-----0-|-1-0-------------|
-2---|-----2-------2---|-----2-0-----0---|
-----|-----------------|---------2-4---2-|
-----|-----------------|-----------------|
-----|-----------------|-----------------|


|-----------0-2-0-|-----------------|
|---3-3-3-3-------|-3-1-----------0-|
|-----------------|-----2-0---0-2---|
|-0---------------|---------4-------|
|-----------------|-----------------|
|-----------------|-----------------|


|-----------------|-----------------|
|-1---1-0-1-1---0-|-1-0-------------|
|-------------2---|-----2-0-----0---|
|-----------------|---------2-4---2-|
|-----------------|-----------------|
|-----------------|-----------------|


|-----------------|-----------------|
|-----------0-1---|-3-1-----------0-|
|-------0-2-----2-|-----2-0---0-2---|
|-0-2-4-----------|---------4-------|
|-----------------|-----------------|
|-----------------|-----------------|

Part B

|-0-3-3-3-5-3-3-3-|-0-3-3-3-0-------|
|-----------------|-----------3-2-3-|
|-----------------|-----------------|
|-----------------|-----------------|
|-----------------|-----------------|
|-----------------|-----------------|


|-0-5-5-5-7-5-5-5-|-0-5-5-5-0-------|
|-----------------|-----------3-2-3-|
|-----------------|-----------------|
|-----------------|-----------------|
|-----------------|-----------------|
|-----------------|-----------------|


|-0-3-3-3-5-3-3-3-|-2-3-2-0---0-2-3-|
|-----------------|---------3-------|
|-----------------|-----------------|
|-----------------|-----------------|
|-----------------|-----------------|
|-----------------|-----------------|


|-5-2-3-0-2---0---|-----------------|
|-----------3---2-|-3-0-----------0-|
|-----------------|-----2-0---0-2---|
|-----------------|---------4-------|
|-----------------|-----------------|
|-----------------|-----------------|